ISO-10303-21;
HEADER;
/* Generated by software containing ST-Developer
 * from STEP Tools, Inc. (www.steptools.com) 
 */

FILE_DESCRIPTION(
/* description */ (''),
/* implementation_level */ '2;1');

FILE_NAME(
/* name */ 
'D:\\Documents\\Projects\\Linear Slider\\CAD\\3-Axis Slider CAD STEP E
xports\\2040 hall clamp.stp',
/* time_stamp */ '2020-09-01T18:54:21+01:00',
/* author */ ('isaac879'),
/* organization */ (''),
/* preprocessor_version */ 'ST-DEVELOPER v18',
/* originating_system */ 'Autodesk Inventor 2020',
/* authorisation */ '');

FILE_SCHEMA (('AUTOMOTIVE_DESIGN { 1 0 10303 214 3 1 1 }'));
ENDSEC;

DATA;
#10=MECHANICAL_DESIGN_GEOMETRIC_PRESENTATION_REPRESENTATION('',(#13),#676);
#11=SHAPE_REPRESENTATION_RELATIONSHIP('SRR','None',#683,#12);
#12=ADVANCED_BREP_SHAPE_REPRESENTATION('',(#14),#675);
#13=STYLED_ITEM('',(#692),#14);
#14=MANIFOLD_SOLID_BREP('Solid1',#385);
#15=CYLINDRICAL_SURFACE('',#411,1.25);
#16=CYLINDRICAL_SURFACE('',#419,1.25);
#17=CYLINDRICAL_SURFACE('',#430,2.5);
#18=CYLINDRICAL_SURFACE('',#434,2.5);
#19=CYLINDRICAL_SURFACE('',#443,4.);
#20=CYLINDRICAL_SURFACE('',#445,4.);
#21=FACE_BOUND('',#61,.T.);
#22=FACE_BOUND('',#65,.T.);
#23=FACE_BOUND('',#69,.T.);
#24=FACE_BOUND('',#70,.T.);
#25=FACE_BOUND('',#79,.T.);
#26=FACE_BOUND('',#80,.T.);
#27=PLANE('',#408);
#28=PLANE('',#416);
#29=PLANE('',#426);
#30=PLANE('',#435);
#31=PLANE('',#436);
#32=PLANE('',#437);
#33=PLANE('',#438);
#34=PLANE('',#439);
#35=PLANE('',#442);
#36=PLANE('',#444);
#37=PLANE('',#446);
#38=FACE_OUTER_BOUND('',#59,.T.);
#39=FACE_OUTER_BOUND('',#60,.T.);
#40=FACE_OUTER_BOUND('',#62,.T.);
#41=FACE_OUTER_BOUND('',#63,.T.);
#42=FACE_OUTER_BOUND('',#64,.T.);
#43=FACE_OUTER_BOUND('',#66,.T.);
#44=FACE_OUTER_BOUND('',#67,.T.);
#45=FACE_OUTER_BOUND('',#68,.T.);
#46=FACE_OUTER_BOUND('',#71,.T.);
#47=FACE_OUTER_BOUND('',#72,.T.);
#48=FACE_OUTER_BOUND('',#73,.T.);
#49=FACE_OUTER_BOUND('',#74,.T.);
#50=FACE_OUTER_BOUND('',#75,.T.);
#51=FACE_OUTER_BOUND('',#76,.T.);
#52=FACE_OUTER_BOUND('',#77,.T.);
#53=FACE_OUTER_BOUND('',#78,.T.);
#54=FACE_OUTER_BOUND('',#81,.T.);
#55=FACE_OUTER_BOUND('',#82,.T.);
#56=FACE_OUTER_BOUND('',#83,.T.);
#57=FACE_OUTER_BOUND('',#84,.T.);
#58=FACE_OUTER_BOUND('',#85,.T.);
#59=EDGE_LOOP('',(#256,#257,#258,#259));
#60=EDGE_LOOP('',(#260,#261));
#61=EDGE_LOOP('',(#262));
#62=EDGE_LOOP('',(#263,#264,#265,#266));
#63=EDGE_LOOP('',(#267,#268,#269,#270));
#64=EDGE_LOOP('',(#271,#272));
#65=EDGE_LOOP('',(#273));
#66=EDGE_LOOP('',(#274,#275,#276,#277,#278));
#67=EDGE_LOOP('',(#279,#280,#281,#282,#283));
#68=EDGE_LOOP('',(#284,#285,#286,#287));
#69=EDGE_LOOP('',(#288));
#70=EDGE_LOOP('',(#289));
#71=EDGE_LOOP('',(#290,#291,#292,#293,#294,#295));
#72=EDGE_LOOP('',(#296,#297,#298,#299,#300));
#73=EDGE_LOOP('',(#301,#302,#303,#304,#305,#306));
#74=EDGE_LOOP('',(#307,#308,#309,#310));
#75=EDGE_LOOP('',(#311,#312,#313,#314,#315));
#76=EDGE_LOOP('',(#316,#317,#318,#319));
#77=EDGE_LOOP('',(#320,#321,#322,#323,#324));
#78=EDGE_LOOP('',(#325,#326,#327,#328,#329,#330,#331,#332));
#79=EDGE_LOOP('',(#333,#334));
#80=EDGE_LOOP('',(#335));
#81=EDGE_LOOP('',(#336,#337,#338,#339,#340,#341,#342,#343));
#82=EDGE_LOOP('',(#344,#345,#346,#347));
#83=EDGE_LOOP('',(#348,#349,#350,#351));
#84=EDGE_LOOP('',(#352,#353,#354,#355));
#85=EDGE_LOOP('',(#356,#357,#358,#359));
#86=LINE('',#569,#117);
#87=LINE('',#579,#118);
#88=LINE('',#584,#119);
#89=LINE('',#596,#120);
#90=LINE('',#601,#121);
#91=LINE('',#610,#122);
#92=LINE('',#613,#123);
#93=LINE('',#617,#124);
#94=LINE('',#620,#125);
#95=LINE('',#625,#126);
#96=LINE('',#629,#127);
#97=LINE('',#631,#128);
#98=LINE('',#633,#129);
#99=LINE('',#634,#130);
#100=LINE('',#637,#131);
#101=LINE('',#639,#132);
#102=LINE('',#641,#133);
#103=LINE('',#642,#134);
#104=LINE('',#645,#135);
#105=LINE('',#646,#136);
#106=LINE('',#649,#137);
#107=LINE('',#651,#138);
#108=LINE('',#652,#139);
#109=LINE('',#658,#140);
#110=LINE('',#661,#141);
#111=LINE('',#662,#142);
#112=LINE('',#664,#143);
#113=LINE('',#665,#144);
#114=LINE('',#666,#145);
#115=LINE('',#668,#146);
#116=LINE('',#670,#147);
#117=VECTOR('',#453,1.45);
#118=VECTOR('',#466,1.25);
#119=VECTOR('',#471,1.45);
#120=VECTOR('',#486,1.25);
#121=VECTOR('',#491,2.9);
#122=VECTOR('',#500,10.);
#123=VECTOR('',#503,10.);
#124=VECTOR('',#508,2.5);
#125=VECTOR('',#511,2.9);
#126=VECTOR('',#518,2.5);
#127=VECTOR('',#521,10.);
#128=VECTOR('',#522,10.);
#129=VECTOR('',#523,10.);
#130=VECTOR('',#524,10.);
#131=VECTOR('',#527,10.);
#132=VECTOR('',#528,10.);
#133=VECTOR('',#529,10.);
#134=VECTOR('',#530,10.);
#135=VECTOR('',#533,10.);
#136=VECTOR('',#534,10.);
#137=VECTOR('',#537,10.);
#138=VECTOR('',#538,10.);
#139=VECTOR('',#539,10.);
#140=VECTOR('',#544,10.);
#141=VECTOR('',#547,10.);
#142=VECTOR('',#548,10.);
#143=VECTOR('',#551,10.);
#144=VECTOR('',#552,10.);
#145=VECTOR('',#553,10.);
#146=VECTOR('',#556,10.);
#147=VECTOR('',#559,10.);
#148=CIRCLE('',#406,1.25);
#149=CIRCLE('',#407,1.65);
#150=CIRCLE('',#409,2.5);
#151=CIRCLE('',#410,2.5);
#152=CIRCLE('',#412,1.25);
#153=CIRCLE('',#414,1.25);
#154=CIRCLE('',#415,1.65);
#155=CIRCLE('',#417,2.5);
#156=CIRCLE('',#418,2.5);
#157=CIRCLE('',#420,1.25);
#158=CIRCLE('',#421,1.25);
#159=CIRCLE('',#423,3.3);
#160=CIRCLE('',#424,2.5);
#161=CIRCLE('',#425,2.5);
#162=CIRCLE('',#427,4.);
#163=CIRCLE('',#428,4.);
#164=CIRCLE('',#429,3.3);
#165=CIRCLE('',#432,2.5);
#166=CIRCLE('',#433,2.5);
#167=CIRCLE('',#440,4.);
#168=CIRCLE('',#441,4.);
#169=VERTEX_POINT('',#566);
#170=VERTEX_POINT('',#568);
#171=VERTEX_POINT('',#572);
#172=VERTEX_POINT('',#573);
#173=VERTEX_POINT('',#577);
#174=VERTEX_POINT('',#581);
#175=VERTEX_POINT('',#583);
#176=VERTEX_POINT('',#587);
#177=VERTEX_POINT('',#588);
#178=VERTEX_POINT('',#592);
#179=VERTEX_POINT('',#593);
#180=VERTEX_POINT('',#598);
#181=VERTEX_POINT('',#600);
#182=VERTEX_POINT('',#602);
#183=VERTEX_POINT('',#606);
#184=VERTEX_POINT('',#607);
#185=VERTEX_POINT('',#609);
#186=VERTEX_POINT('',#611);
#187=VERTEX_POINT('',#614);
#188=VERTEX_POINT('',#619);
#189=VERTEX_POINT('',#621);
#190=VERTEX_POINT('',#627);
#191=VERTEX_POINT('',#628);
#192=VERTEX_POINT('',#630);
#193=VERTEX_POINT('',#632);
#194=VERTEX_POINT('',#636);
#195=VERTEX_POINT('',#638);
#196=VERTEX_POINT('',#640);
#197=VERTEX_POINT('',#644);
#198=VERTEX_POINT('',#648);
#199=VERTEX_POINT('',#650);
#200=VERTEX_POINT('',#654);
#201=VERTEX_POINT('',#655);
#202=VERTEX_POINT('',#657);
#203=VERTEX_POINT('',#659);
#204=EDGE_CURVE('',#169,#169,#148,.T.);
#205=EDGE_CURVE('',#169,#170,#86,.T.);
#206=EDGE_CURVE('',#170,#170,#149,.T.);
#207=EDGE_CURVE('',#171,#172,#150,.T.);
#208=EDGE_CURVE('',#172,#171,#151,.T.);
#209=EDGE_CURVE('',#173,#173,#152,.T.);
#210=EDGE_CURVE('',#173,#169,#87,.T.);
#211=EDGE_CURVE('',#174,#174,#153,.T.);
#212=EDGE_CURVE('',#174,#175,#88,.T.);
#213=EDGE_CURVE('',#175,#175,#154,.T.);
#214=EDGE_CURVE('',#176,#177,#155,.T.);
#215=EDGE_CURVE('',#177,#176,#156,.T.);
#216=EDGE_CURVE('',#178,#179,#157,.T.);
#217=EDGE_CURVE('',#179,#178,#158,.T.);
#218=EDGE_CURVE('',#179,#174,#89,.T.);
#219=EDGE_CURVE('',#180,#180,#159,.T.);
#220=EDGE_CURVE('',#180,#181,#90,.T.);
#221=EDGE_CURVE('',#181,#182,#160,.T.);
#222=EDGE_CURVE('',#182,#181,#161,.T.);
#223=EDGE_CURVE('',#183,#184,#162,.T.);
#224=EDGE_CURVE('',#185,#183,#91,.T.);
#225=EDGE_CURVE('',#186,#185,#163,.T.);
#226=EDGE_CURVE('',#184,#186,#92,.T.);
#227=EDGE_CURVE('',#187,#187,#164,.T.);
#228=EDGE_CURVE('',#182,#172,#93,.T.);
#229=EDGE_CURVE('',#187,#188,#94,.T.);
#230=EDGE_CURVE('',#188,#189,#165,.T.);
#231=EDGE_CURVE('',#189,#188,#166,.T.);
#232=EDGE_CURVE('',#189,#177,#95,.T.);
#233=EDGE_CURVE('',#190,#191,#96,.T.);
#234=EDGE_CURVE('',#190,#192,#97,.T.);
#235=EDGE_CURVE('',#193,#192,#98,.T.);
#236=EDGE_CURVE('',#193,#191,#99,.T.);
#237=EDGE_CURVE('',#191,#194,#100,.T.);
#238=EDGE_CURVE('',#195,#194,#101,.T.);
#239=EDGE_CURVE('',#196,#195,#102,.T.);
#240=EDGE_CURVE('',#190,#196,#103,.T.);
#241=EDGE_CURVE('',#193,#197,#104,.T.);
#242=EDGE_CURVE('',#194,#197,#105,.T.);
#243=EDGE_CURVE('',#198,#192,#106,.T.);
#244=EDGE_CURVE('',#198,#199,#107,.T.);
#245=EDGE_CURVE('',#197,#199,#108,.T.);
#246=EDGE_CURVE('',#200,#201,#167,.T.);
#247=EDGE_CURVE('',#201,#202,#109,.T.);
#248=EDGE_CURVE('',#202,#203,#168,.T.);
#249=EDGE_CURVE('',#203,#195,#110,.T.);
#250=EDGE_CURVE('',#199,#200,#111,.T.);
#251=EDGE_CURVE('',#183,#200,#112,.T.);
#252=EDGE_CURVE('',#196,#198,#113,.T.);
#253=EDGE_CURVE('',#185,#203,#114,.T.);
#254=EDGE_CURVE('',#186,#202,#115,.T.);
#255=EDGE_CURVE('',#184,#201,#116,.T.);
#256=ORIENTED_EDGE('',*,*,#204,.T.);
#257=ORIENTED_EDGE('',*,*,#205,.T.);
#258=ORIENTED_EDGE('',*,*,#206,.T.);
#259=ORIENTED_EDGE('',*,*,#205,.F.);
#260=ORIENTED_EDGE('',*,*,#207,.F.);
#261=ORIENTED_EDGE('',*,*,#208,.F.);
#262=ORIENTED_EDGE('',*,*,#206,.F.);
#263=ORIENTED_EDGE('',*,*,#209,.F.);
#264=ORIENTED_EDGE('',*,*,#210,.T.);
#265=ORIENTED_EDGE('',*,*,#204,.F.);
#266=ORIENTED_EDGE('',*,*,#210,.F.);
#267=ORIENTED_EDGE('',*,*,#211,.T.);
#268=ORIENTED_EDGE('',*,*,#212,.T.);
#269=ORIENTED_EDGE('',*,*,#213,.T.);
#270=ORIENTED_EDGE('',*,*,#212,.F.);
#271=ORIENTED_EDGE('',*,*,#214,.F.);
#272=ORIENTED_EDGE('',*,*,#215,.F.);
#273=ORIENTED_EDGE('',*,*,#213,.F.);
#274=ORIENTED_EDGE('',*,*,#216,.F.);
#275=ORIENTED_EDGE('',*,*,#217,.F.);
#276=ORIENTED_EDGE('',*,*,#218,.T.);
#277=ORIENTED_EDGE('',*,*,#211,.F.);
#278=ORIENTED_EDGE('',*,*,#218,.F.);
#279=ORIENTED_EDGE('',*,*,#219,.T.);
#280=ORIENTED_EDGE('',*,*,#220,.T.);
#281=ORIENTED_EDGE('',*,*,#221,.T.);
#282=ORIENTED_EDGE('',*,*,#222,.T.);
#283=ORIENTED_EDGE('',*,*,#220,.F.);
#284=ORIENTED_EDGE('',*,*,#223,.F.);
#285=ORIENTED_EDGE('',*,*,#224,.F.);
#286=ORIENTED_EDGE('',*,*,#225,.F.);
#287=ORIENTED_EDGE('',*,*,#226,.F.);
#288=ORIENTED_EDGE('',*,*,#227,.F.);
#289=ORIENTED_EDGE('',*,*,#219,.F.);
#290=ORIENTED_EDGE('',*,*,#221,.F.);
#291=ORIENTED_EDGE('',*,*,#222,.F.);
#292=ORIENTED_EDGE('',*,*,#228,.T.);
#293=ORIENTED_EDGE('',*,*,#208,.T.);
#294=ORIENTED_EDGE('',*,*,#207,.T.);
#295=ORIENTED_EDGE('',*,*,#228,.F.);
#296=ORIENTED_EDGE('',*,*,#227,.T.);
#297=ORIENTED_EDGE('',*,*,#229,.T.);
#298=ORIENTED_EDGE('',*,*,#230,.T.);
#299=ORIENTED_EDGE('',*,*,#231,.T.);
#300=ORIENTED_EDGE('',*,*,#229,.F.);
#301=ORIENTED_EDGE('',*,*,#230,.F.);
#302=ORIENTED_EDGE('',*,*,#231,.F.);
#303=ORIENTED_EDGE('',*,*,#232,.T.);
#304=ORIENTED_EDGE('',*,*,#215,.T.);
#305=ORIENTED_EDGE('',*,*,#214,.T.);
#306=ORIENTED_EDGE('',*,*,#232,.F.);
#307=ORIENTED_EDGE('',*,*,#233,.F.);
#308=ORIENTED_EDGE('',*,*,#234,.T.);
#309=ORIENTED_EDGE('',*,*,#235,.F.);
#310=ORIENTED_EDGE('',*,*,#236,.T.);
#311=ORIENTED_EDGE('',*,*,#233,.T.);
#312=ORIENTED_EDGE('',*,*,#237,.T.);
#313=ORIENTED_EDGE('',*,*,#238,.F.);
#314=ORIENTED_EDGE('',*,*,#239,.F.);
#315=ORIENTED_EDGE('',*,*,#240,.F.);
#316=ORIENTED_EDGE('',*,*,#236,.F.);
#317=ORIENTED_EDGE('',*,*,#241,.T.);
#318=ORIENTED_EDGE('',*,*,#242,.F.);
#319=ORIENTED_EDGE('',*,*,#237,.F.);
#320=ORIENTED_EDGE('',*,*,#235,.T.);
#321=ORIENTED_EDGE('',*,*,#243,.F.);
#322=ORIENTED_EDGE('',*,*,#244,.T.);
#323=ORIENTED_EDGE('',*,*,#245,.F.);
#324=ORIENTED_EDGE('',*,*,#241,.F.);
#325=ORIENTED_EDGE('',*,*,#246,.T.);
#326=ORIENTED_EDGE('',*,*,#247,.T.);
#327=ORIENTED_EDGE('',*,*,#248,.T.);
#328=ORIENTED_EDGE('',*,*,#249,.T.);
#329=ORIENTED_EDGE('',*,*,#238,.T.);
#330=ORIENTED_EDGE('',*,*,#242,.T.);
#331=ORIENTED_EDGE('',*,*,#245,.T.);
#332=ORIENTED_EDGE('',*,*,#250,.T.);
#333=ORIENTED_EDGE('',*,*,#216,.T.);
#334=ORIENTED_EDGE('',*,*,#217,.T.);
#335=ORIENTED_EDGE('',*,*,#209,.T.);
#336=ORIENTED_EDGE('',*,*,#224,.T.);
#337=ORIENTED_EDGE('',*,*,#251,.T.);
#338=ORIENTED_EDGE('',*,*,#250,.F.);
#339=ORIENTED_EDGE('',*,*,#244,.F.);
#340=ORIENTED_EDGE('',*,*,#252,.F.);
#341=ORIENTED_EDGE('',*,*,#239,.T.);
#342=ORIENTED_EDGE('',*,*,#249,.F.);
#343=ORIENTED_EDGE('',*,*,#253,.F.);
#344=ORIENTED_EDGE('',*,*,#225,.T.);
#345=ORIENTED_EDGE('',*,*,#253,.T.);
#346=ORIENTED_EDGE('',*,*,#248,.F.);
#347=ORIENTED_EDGE('',*,*,#254,.F.);
#348=ORIENTED_EDGE('',*,*,#226,.T.);
#349=ORIENTED_EDGE('',*,*,#254,.T.);
#350=ORIENTED_EDGE('',*,*,#247,.F.);
#351=ORIENTED_EDGE('',*,*,#255,.F.);
#352=ORIENTED_EDGE('',*,*,#223,.T.);
#353=ORIENTED_EDGE('',*,*,#255,.T.);
#354=ORIENTED_EDGE('',*,*,#246,.F.);
#355=ORIENTED_EDGE('',*,*,#251,.F.);
#356=ORIENTED_EDGE('',*,*,#234,.F.);
#357=ORIENTED_EDGE('',*,*,#240,.T.);
#358=ORIENTED_EDGE('',*,*,#252,.T.);
#359=ORIENTED_EDGE('',*,*,#243,.T.);
#360=CONICAL_SURFACE('',#405,1.45,0.785398163397449);
#361=CONICAL_SURFACE('',#413,1.45,0.785398163397449);
#362=CONICAL_SURFACE('',#422,2.9,0.785398163397448);
#363=CONICAL_SURFACE('',#431,2.9,0.785398163397449);
#364=ADVANCED_FACE('',(#38),#360,.F.);
#365=ADVANCED_FACE('',(#39,#21),#27,.T.);
#366=ADVANCED_FACE('',(#40),#15,.F.);
#367=ADVANCED_FACE('',(#41),#361,.F.);
#368=ADVANCED_FACE('',(#42,#22),#28,.T.);
#369=ADVANCED_FACE('',(#43),#16,.F.);
#370=ADVANCED_FACE('',(#44),#362,.F.);
#371=ADVANCED_FACE('',(#45,#23,#24),#29,.F.);
#372=ADVANCED_FACE('',(#46),#17,.F.);
#373=ADVANCED_FACE('',(#47),#363,.F.);
#374=ADVANCED_FACE('',(#48),#18,.F.);
#375=ADVANCED_FACE('',(#49),#30,.T.);
#376=ADVANCED_FACE('',(#50),#31,.T.);
#377=ADVANCED_FACE('',(#51),#32,.T.);
#378=ADVANCED_FACE('',(#52),#33,.T.);
#379=ADVANCED_FACE('',(#53,#25,#26),#34,.T.);
#380=ADVANCED_FACE('',(#54),#35,.T.);
#381=ADVANCED_FACE('',(#55),#19,.T.);
#382=ADVANCED_FACE('',(#56),#36,.T.);
#383=ADVANCED_FACE('',(#57),#20,.T.);
#384=ADVANCED_FACE('',(#58),#37,.T.);
#385=CLOSED_SHELL('',(#364,#365,#366,#367,#368,#369,#370,#371,#372,#373,
#374,#375,#376,#377,#378,#379,#380,#381,#382,#383,#384));
#386=DERIVED_UNIT_ELEMENT(#388,1.);
#387=DERIVED_UNIT_ELEMENT(#678,3.);
#388=(
MASS_UNIT()
NAMED_UNIT(*)
SI_UNIT($,.GRAM.)
);
#389=DERIVED_UNIT((#386,#387));
#390=MEASURE_REPRESENTATION_ITEM('density measure',
POSITIVE_RATIO_MEASURE(1.),#389);
#391=PROPERTY_DEFINITION_REPRESENTATION(#396,#393);
#392=PROPERTY_DEFINITION_REPRESENTATION(#397,#394);
#393=REPRESENTATION('material name',(#395),#675);
#394=REPRESENTATION('density',(#390),#675);
#395=DESCRIPTIVE_REPRESENTATION_ITEM('Generic','Generic');
#396=PROPERTY_DEFINITION('material property','material name',#685);
#397=PROPERTY_DEFINITION('material property','density of part',#685);
#398=DATE_TIME_ROLE('creation_date');
#399=APPLIED_DATE_AND_TIME_ASSIGNMENT(#400,#398,(#685));
#400=DATE_AND_TIME(#401,#402);
#401=CALENDAR_DATE(2020,11,7);
#402=LOCAL_TIME(9,4,24.,#403);
#403=COORDINATED_UNIVERSAL_TIME_OFFSET(0,0,.BEHIND.);
#404=AXIS2_PLACEMENT_3D('placement',#564,#447,#448);
#405=AXIS2_PLACEMENT_3D('',#565,#449,#450);
#406=AXIS2_PLACEMENT_3D('',#567,#451,#452);
#407=AXIS2_PLACEMENT_3D('',#570,#454,#455);
#408=AXIS2_PLACEMENT_3D('',#571,#456,#457);
#409=AXIS2_PLACEMENT_3D('',#574,#458,#459);
#410=AXIS2_PLACEMENT_3D('',#575,#460,#461);
#411=AXIS2_PLACEMENT_3D('',#576,#462,#463);
#412=AXIS2_PLACEMENT_3D('',#578,#464,#465);
#413=AXIS2_PLACEMENT_3D('',#580,#467,#468);
#414=AXIS2_PLACEMENT_3D('',#582,#469,#470);
#415=AXIS2_PLACEMENT_3D('',#585,#472,#473);
#416=AXIS2_PLACEMENT_3D('',#586,#474,#475);
#417=AXIS2_PLACEMENT_3D('',#589,#476,#477);
#418=AXIS2_PLACEMENT_3D('',#590,#478,#479);
#419=AXIS2_PLACEMENT_3D('',#591,#480,#481);
#420=AXIS2_PLACEMENT_3D('',#594,#482,#483);
#421=AXIS2_PLACEMENT_3D('',#595,#484,#485);
#422=AXIS2_PLACEMENT_3D('',#597,#487,#488);
#423=AXIS2_PLACEMENT_3D('',#599,#489,#490);
#424=AXIS2_PLACEMENT_3D('',#603,#492,#493);
#425=AXIS2_PLACEMENT_3D('',#604,#494,#495);
#426=AXIS2_PLACEMENT_3D('',#605,#496,#497);
#427=AXIS2_PLACEMENT_3D('',#608,#498,#499);
#428=AXIS2_PLACEMENT_3D('',#612,#501,#502);
#429=AXIS2_PLACEMENT_3D('',#615,#504,#505);
#430=AXIS2_PLACEMENT_3D('',#616,#506,#507);
#431=AXIS2_PLACEMENT_3D('',#618,#509,#510);
#432=AXIS2_PLACEMENT_3D('',#622,#512,#513);
#433=AXIS2_PLACEMENT_3D('',#623,#514,#515);
#434=AXIS2_PLACEMENT_3D('',#624,#516,#517);
#435=AXIS2_PLACEMENT_3D('',#626,#519,#520);
#436=AXIS2_PLACEMENT_3D('',#635,#525,#526);
#437=AXIS2_PLACEMENT_3D('',#643,#531,#532);
#438=AXIS2_PLACEMENT_3D('',#647,#535,#536);
#439=AXIS2_PLACEMENT_3D('',#653,#540,#541);
#440=AXIS2_PLACEMENT_3D('',#656,#542,#543);
#441=AXIS2_PLACEMENT_3D('',#660,#545,#546);
#442=AXIS2_PLACEMENT_3D('',#663,#549,#550);
#443=AXIS2_PLACEMENT_3D('',#667,#554,#555);
#444=AXIS2_PLACEMENT_3D('',#669,#557,#558);
#445=AXIS2_PLACEMENT_3D('',#671,#560,#561);
#446=AXIS2_PLACEMENT_3D('',#672,#562,#563);
#447=DIRECTION('axis',(0.,0.,1.));
#448=DIRECTION('refdir',(1.,0.,0.));
#449=DIRECTION('center_axis',(0.,0.,-1.));
#450=DIRECTION('ref_axis',(-1.,0.,0.));
#451=DIRECTION('center_axis',(0.,0.,1.));
#452=DIRECTION('ref_axis',(-1.,0.,0.));
#453=DIRECTION('',(0.707106781186548,8.65956056235494E-17,-0.707106781186547));
#454=DIRECTION('center_axis',(0.,0.,-1.));
#455=DIRECTION('ref_axis',(-1.,0.,0.));
#456=DIRECTION('center_axis',(0.,0.,-1.));
#457=DIRECTION('ref_axis',(-1.,0.,0.));
#458=DIRECTION('center_axis',(0.,0.,1.));
#459=DIRECTION('ref_axis',(-1.,0.,0.));
#460=DIRECTION('center_axis',(0.,0.,1.));
#461=DIRECTION('ref_axis',(-1.,0.,0.));
#462=DIRECTION('center_axis',(0.,0.,1.));
#463=DIRECTION('ref_axis',(-1.,0.,0.));
#464=DIRECTION('center_axis',(0.,0.,-1.));
#465=DIRECTION('ref_axis',(-1.,0.,0.));
#466=DIRECTION('',(0.,0.,-1.));
#467=DIRECTION('center_axis',(0.,0.,-1.));
#468=DIRECTION('ref_axis',(0.,1.,0.));
#469=DIRECTION('center_axis',(0.,0.,1.));
#470=DIRECTION('ref_axis',(0.,1.,0.));
#471=DIRECTION('',(8.65956056235494E-17,-0.707106781186548,-0.707106781186547));
#472=DIRECTION('center_axis',(0.,0.,-1.));
#473=DIRECTION('ref_axis',(0.,1.,0.));
#474=DIRECTION('center_axis',(0.,0.,-1.));
#475=DIRECTION('ref_axis',(-1.,0.,0.));
#476=DIRECTION('center_axis',(0.,0.,1.));
#477=DIRECTION('ref_axis',(-1.,0.,0.));
#478=DIRECTION('center_axis',(0.,0.,1.));
#479=DIRECTION('ref_axis',(-1.,0.,0.));
#480=DIRECTION('center_axis',(0.,0.,1.));
#481=DIRECTION('ref_axis',(0.,1.,0.));
#482=DIRECTION('center_axis',(0.,0.,-1.));
#483=DIRECTION('ref_axis',(-1.,0.,0.));
#484=DIRECTION('center_axis',(0.,0.,-1.));
#485=DIRECTION('ref_axis',(-1.,0.,0.));
#486=DIRECTION('',(0.,0.,-1.));
#487=DIRECTION('center_axis',(0.,0.,-1.));
#488=DIRECTION('ref_axis',(1.,0.,0.));
#489=DIRECTION('center_axis',(0.,0.,-1.));
#490=DIRECTION('ref_axis',(1.,0.,0.));
#491=DIRECTION('',(0.707106781186548,-8.65956056235493E-17,0.707106781186548));
#492=DIRECTION('center_axis',(0.,0.,1.));
#493=DIRECTION('ref_axis',(1.,0.,0.));
#494=DIRECTION('center_axis',(0.,0.,1.));
#495=DIRECTION('ref_axis',(1.,0.,0.));
#496=DIRECTION('center_axis',(0.,0.,1.));
#497=DIRECTION('ref_axis',(1.,0.,0.));
#498=DIRECTION('center_axis',(0.,0.,1.));
#499=DIRECTION('ref_axis',(2.77555756156289E-16,-1.,0.));
#500=DIRECTION('',(1.,3.62029247160377E-16,0.));
#501=DIRECTION('center_axis',(0.,0.,1.));
#502=DIRECTION('ref_axis',(-1.22464679914735E-16,1.,0.));
#503=DIRECTION('',(-1.,-1.81014623580189E-16,0.));
#504=DIRECTION('center_axis',(0.,0.,-1.));
#505=DIRECTION('ref_axis',(1.,0.,0.));
#506=DIRECTION('center_axis',(0.,0.,1.));
#507=DIRECTION('ref_axis',(-1.,0.,0.));
#508=DIRECTION('',(0.,0.,1.));
#509=DIRECTION('center_axis',(0.,0.,-1.));
#510=DIRECTION('ref_axis',(1.,0.,0.));
#511=DIRECTION('',(0.707106781186548,-8.65956056235494E-17,0.707106781186547));
#512=DIRECTION('center_axis',(0.,0.,1.));
#513=DIRECTION('ref_axis',(1.,0.,0.));
#514=DIRECTION('center_axis',(0.,0.,1.));
#515=DIRECTION('ref_axis',(1.,0.,0.));
#516=DIRECTION('center_axis',(0.,0.,1.));
#517=DIRECTION('ref_axis',(-1.,0.,0.));
#518=DIRECTION('',(0.,0.,1.));
#519=DIRECTION('center_axis',(0.,-0.707106781186548,0.707106781186548));
#520=DIRECTION('ref_axis',(1.,0.,0.));
#521=DIRECTION('',(0.,0.707106781186548,0.707106781186548));
#522=DIRECTION('',(1.,0.,0.));
#523=DIRECTION('',(0.,-0.707106781186548,-0.707106781186548));
#524=DIRECTION('',(-1.,0.,0.));
#525=DIRECTION('center_axis',(1.,0.,0.));
#526=DIRECTION('ref_axis',(0.,1.,0.));
#527=DIRECTION('',(0.,0.,1.));
#528=DIRECTION('',(0.,1.,0.));
#529=DIRECTION('',(0.,0.,1.));
#530=DIRECTION('',(0.,-1.,0.));
#531=DIRECTION('center_axis',(0.,-1.,0.));
#532=DIRECTION('ref_axis',(1.,0.,0.));
#533=DIRECTION('',(0.,0.,1.));
#534=DIRECTION('',(1.,0.,0.));
#535=DIRECTION('center_axis',(-1.,0.,0.));
#536=DIRECTION('ref_axis',(0.,-1.,0.));
#537=DIRECTION('',(0.,1.,0.));
#538=DIRECTION('',(0.,0.,1.));
#539=DIRECTION('',(0.,-1.,0.));
#540=DIRECTION('center_axis',(0.,0.,1.));
#541=DIRECTION('ref_axis',(1.,0.,0.));
#542=DIRECTION('center_axis',(0.,0.,1.));
#543=DIRECTION('ref_axis',(2.77555756156289E-16,-1.,0.));
#544=DIRECTION('',(-1.,-2.41352831440251E-16,0.));
#545=DIRECTION('center_axis',(0.,0.,1.));
#546=DIRECTION('ref_axis',(0.,1.,0.));
#547=DIRECTION('',(1.,3.62029247160377E-16,0.));
#548=DIRECTION('',(1.,3.62029247160377E-16,0.));
#549=DIRECTION('center_axis',(3.62029247160377E-16,-1.,0.));
#550=DIRECTION('ref_axis',(1.,3.62029247160377E-16,0.));
#551=DIRECTION('',(0.,0.,1.));
#552=DIRECTION('',(1.,3.62029247160377E-16,0.));
#553=DIRECTION('',(0.,0.,1.));
#554=DIRECTION('center_axis',(0.,0.,1.));
#555=DIRECTION('ref_axis',(-1.22464679914735E-16,1.,0.));
#556=DIRECTION('',(0.,0.,1.));
#557=DIRECTION('center_axis',(-1.81014623580189E-16,1.,0.));
#558=DIRECTION('ref_axis',(-1.,-1.81014623580189E-16,0.));
#559=DIRECTION('',(0.,0.,1.));
#560=DIRECTION('center_axis',(0.,0.,1.));
#561=DIRECTION('ref_axis',(2.77555756156289E-16,-1.,0.));
#562=DIRECTION('center_axis',(0.,0.,1.));
#563=DIRECTION('ref_axis',(1.,0.,0.));
#564=CARTESIAN_POINT('',(0.,0.,0.));
#565=CARTESIAN_POINT('Origin',(0.,0.,3.7));
#566=CARTESIAN_POINT('',(1.25,1.53080849893419E-16,3.9));
#567=CARTESIAN_POINT('Origin',(0.,0.,3.9));
#568=CARTESIAN_POINT('',(1.65,-2.02066721859313E-16,3.5));
#569=CARTESIAN_POINT('',(1.45,1.77573785876366E-16,3.7));
#570=CARTESIAN_POINT('Origin',(0.,0.,3.5));
#571=CARTESIAN_POINT('Origin',(0.,0.,3.5));
#572=CARTESIAN_POINT('',(-2.5,0.,3.5));
#573=CARTESIAN_POINT('',(2.5,3.06161699786838E-16,3.5));
#574=CARTESIAN_POINT('Origin',(0.,0.,3.5));
#575=CARTESIAN_POINT('Origin',(0.,0.,3.5));
#576=CARTESIAN_POINT('Origin',(0.,0.,0.));
#577=CARTESIAN_POINT('',(1.25,0.,7.));
#578=CARTESIAN_POINT('Origin',(0.,0.,7.));
#579=CARTESIAN_POINT('',(1.25,1.53080849893419E-16,0.));
#580=CARTESIAN_POINT('Origin',(9.2,0.,3.7));
#581=CARTESIAN_POINT('',(9.2,-1.25,3.9));
#582=CARTESIAN_POINT('Origin',(9.2,0.,3.9));
#583=CARTESIAN_POINT('',(9.2,-1.65,3.5));
#584=CARTESIAN_POINT('',(9.2,-1.45,3.7));
#585=CARTESIAN_POINT('Origin',(9.2,0.,3.5));
#586=CARTESIAN_POINT('Origin',(9.2,0.,3.5));
#587=CARTESIAN_POINT('',(6.7,0.,3.5));
#588=CARTESIAN_POINT('',(11.7,3.06161699786838E-16,3.5));
#589=CARTESIAN_POINT('Origin',(9.2,0.,3.5));
#590=CARTESIAN_POINT('Origin',(9.2,0.,3.5));
#591=CARTESIAN_POINT('Origin',(9.2,0.,0.));
#592=CARTESIAN_POINT('',(10.45,0.,7.));
#593=CARTESIAN_POINT('',(9.2,-1.25,7.));
#594=CARTESIAN_POINT('Origin',(9.2,0.,7.));
#595=CARTESIAN_POINT('Origin',(9.2,0.,7.));
#596=CARTESIAN_POINT('',(9.2,-1.25,0.));
#597=CARTESIAN_POINT('Origin',(0.,0.,0.4));
#598=CARTESIAN_POINT('',(-3.3,4.04133443718627E-16,0.));
#599=CARTESIAN_POINT('Origin',(0.,0.,0.));
#600=CARTESIAN_POINT('',(-2.5,-3.06161699786838E-16,0.8));
#601=CARTESIAN_POINT('',(-2.9,3.55147571752732E-16,0.4));
#602=CARTESIAN_POINT('',(2.5,3.06161699786838E-16,0.8));
#603=CARTESIAN_POINT('Origin',(0.,0.,0.8));
#604=CARTESIAN_POINT('Origin',(0.,0.,0.8));
#605=CARTESIAN_POINT('Origin',(4.6,0.,0.));
#606=CARTESIAN_POINT('',(9.2,-4.,0.));
#607=CARTESIAN_POINT('',(9.2,4.,0.));
#608=CARTESIAN_POINT('Origin',(9.2,0.,0.));
#609=CARTESIAN_POINT('',(9.79717439317882E-16,-4.,0.));
#610=CARTESIAN_POINT('',(9.79717439317882E-16,-4.,0.));
#611=CARTESIAN_POINT('',(-4.89858719658941E-16,4.,0.));
#612=CARTESIAN_POINT('Origin',(0.,0.,0.));
#613=CARTESIAN_POINT('',(9.2,4.,0.));
#614=CARTESIAN_POINT('',(5.9,4.04133443718627E-16,0.));
#615=CARTESIAN_POINT('Origin',(9.2,0.,0.));
#616=CARTESIAN_POINT('Origin',(0.,0.,0.));
#617=CARTESIAN_POINT('',(2.5,3.06161699786838E-16,0.));
#618=CARTESIAN_POINT('Origin',(9.2,0.,0.4));
#619=CARTESIAN_POINT('',(6.7,-3.06161699786838E-16,0.8));
#620=CARTESIAN_POINT('',(6.3,3.55147571752732E-16,0.4));
#621=CARTESIAN_POINT('',(11.7,3.06161699786838E-16,0.8));
#622=CARTESIAN_POINT('Origin',(9.2,0.,0.8));
#623=CARTESIAN_POINT('Origin',(9.2,0.,0.8));
#624=CARTESIAN_POINT('Origin',(9.2,0.,0.));
#625=CARTESIAN_POINT('',(11.7,3.06161699786838E-16,0.));
#626=CARTESIAN_POINT('Origin',(3.5,1.75,4.75));
#627=CARTESIAN_POINT('',(2.4,0.999999999999999,4.));
#628=CARTESIAN_POINT('',(2.4,2.5,5.5));
#629=CARTESIAN_POINT('',(2.4,0.125,3.125));
#630=CARTESIAN_POINT('',(6.8,0.999999999999999,4.));
#631=CARTESIAN_POINT('',(3.5,0.999999999999999,4.));
#632=CARTESIAN_POINT('',(6.8,2.5,5.5));
#633=CARTESIAN_POINT('',(6.8,1.75,4.75));
#634=CARTESIAN_POINT('',(3.5,2.5,5.5));
#635=CARTESIAN_POINT('Origin',(2.4,-4.,4.));
#636=CARTESIAN_POINT('',(2.4,2.5,7.));
#637=CARTESIAN_POINT('',(2.4,2.5,4.));
#638=CARTESIAN_POINT('',(2.4,-4.,7.));
#639=CARTESIAN_POINT('',(2.4,-4.,7.));
#640=CARTESIAN_POINT('',(2.4,-4.,4.));
#641=CARTESIAN_POINT('',(2.4,-4.,4.));
#642=CARTESIAN_POINT('',(2.4,-2.,4.));
#643=CARTESIAN_POINT('Origin',(2.4,2.5,4.));
#644=CARTESIAN_POINT('',(6.8,2.5,7.));
#645=CARTESIAN_POINT('',(6.8,2.5,4.));
#646=CARTESIAN_POINT('',(1.25,2.5,7.));
#647=CARTESIAN_POINT('Origin',(6.8,2.5,4.));
#648=CARTESIAN_POINT('',(6.8,-4.,4.));
#649=CARTESIAN_POINT('',(6.8,1.25,4.));
#650=CARTESIAN_POINT('',(6.8,-4.,7.));
#651=CARTESIAN_POINT('',(6.8,-4.,4.));
#652=CARTESIAN_POINT('',(6.8,2.5,7.));
#653=CARTESIAN_POINT('Origin',(4.6,0.,7.));
#654=CARTESIAN_POINT('',(9.2,-4.,7.));
#655=CARTESIAN_POINT('',(9.2,4.,7.));
#656=CARTESIAN_POINT('Origin',(9.2,0.,7.));
#657=CARTESIAN_POINT('',(0.,4.,7.));
#658=CARTESIAN_POINT('',(9.2,4.,7.));
#659=CARTESIAN_POINT('',(1.11022302462516E-15,-4.,7.));
#660=CARTESIAN_POINT('Origin',(0.,0.,7.));
#661=CARTESIAN_POINT('',(1.11022302462516E-15,-4.,7.));
#662=CARTESIAN_POINT('',(1.11022302462516E-15,-4.,7.));
#663=CARTESIAN_POINT('Origin',(9.79717439317882E-16,-4.,0.));
#664=CARTESIAN_POINT('',(9.2,-4.,0.));
#665=CARTESIAN_POINT('',(9.79717439317882E-16,-4.,4.));
#666=CARTESIAN_POINT('',(9.79717439317882E-16,-4.,0.));
#667=CARTESIAN_POINT('Origin',(0.,0.,0.));
#668=CARTESIAN_POINT('',(-4.89858719658941E-16,4.,0.));
#669=CARTESIAN_POINT('Origin',(9.2,4.,0.));
#670=CARTESIAN_POINT('',(9.2,4.,0.));
#671=CARTESIAN_POINT('Origin',(9.2,0.,0.));
#672=CARTESIAN_POINT('Origin',(4.6,0.,4.));
#673=UNCERTAINTY_MEASURE_WITH_UNIT(LENGTH_MEASURE(0.01),#677,
'DISTANCE_ACCURACY_VALUE',
'Maximum model space distance between geometric entities at asserted c
onnectivities');
#674=UNCERTAINTY_MEASURE_WITH_UNIT(LENGTH_MEASURE(0.01),#677,
'DISTANCE_ACCURACY_VALUE',
'Maximum model space distance between geometric entities at asserted c
onnectivities');
#675=(
GEOMETRIC_REPRESENTATION_CONTEXT(3)
GLOBAL_UNCERTAINTY_ASSIGNED_CONTEXT((#673))
GLOBAL_UNIT_ASSIGNED_CONTEXT((#677,#679,#680))
REPRESENTATION_CONTEXT('','3D')
);
#676=(
GEOMETRIC_REPRESENTATION_CONTEXT(3)
GLOBAL_UNCERTAINTY_ASSIGNED_CONTEXT((#674))
GLOBAL_UNIT_ASSIGNED_CONTEXT((#677,#679,#680))
REPRESENTATION_CONTEXT('','3D')
);
#677=(
LENGTH_UNIT()
NAMED_UNIT(*)
SI_UNIT(.MILLI.,.METRE.)
);
#678=(
LENGTH_UNIT()
NAMED_UNIT(*)
SI_UNIT(.CENTI.,.METRE.)
);
#679=(
NAMED_UNIT(*)
PLANE_ANGLE_UNIT()
SI_UNIT($,.RADIAN.)
);
#680=(
NAMED_UNIT(*)
SI_UNIT($,.STERADIAN.)
SOLID_ANGLE_UNIT()
);
#681=SHAPE_DEFINITION_REPRESENTATION(#682,#683);
#682=PRODUCT_DEFINITION_SHAPE('',$,#685);
#683=SHAPE_REPRESENTATION('',(#404),#675);
#684=PRODUCT_DEFINITION_CONTEXT('part definition',#689,'design');
#685=PRODUCT_DEFINITION('2040 hall clamp','2040 hall clamp',#686,#684);
#686=PRODUCT_DEFINITION_FORMATION('',$,#691);
#687=PRODUCT_RELATED_PRODUCT_CATEGORY('2040 hall clamp',
'2040 hall clamp',(#691));
#688=APPLICATION_PROTOCOL_DEFINITION('international standard',
'automotive_design',2009,#689);
#689=APPLICATION_CONTEXT(
'Core Data for Automotive Mechanical Design Process');
#690=PRODUCT_CONTEXT('part definition',#689,'mechanical');
#691=PRODUCT('2040 hall clamp','2040 hall clamp',$,(#690));
#692=PRESENTATION_STYLE_ASSIGNMENT((#693));
#693=SURFACE_STYLE_USAGE(.BOTH.,#696);
#694=SURFACE_STYLE_RENDERING_WITH_PROPERTIES($,#700,(#695));
#695=SURFACE_STYLE_TRANSPARENT(0.);
#696=SURFACE_SIDE_STYLE('',(#697,#694));
#697=SURFACE_STYLE_FILL_AREA(#698);
#698=FILL_AREA_STYLE('',(#699));
#699=FILL_AREA_STYLE_COLOUR('',#700);
#700=COLOUR_RGB('',0.749019607843137,0.749019607843137,0.749019607843137);
ENDSEC;
END-ISO-10303-21;
